Guitar Tab:Hearing Aid

From This Might Be A Wiki
Hearing Aid
By: They Might Be Giants
Key: D Major
Year: 1990
Tabbed By: JJRRutgers
Hearing Aid

e-10h14-12-10-12-14-10--10----------10---------------------------------------------
B--------------------------14-12-14----10------------------------------------------
G-----------------------------------------12p11h12p11h12--12p11h12p11h12p11h12-----
D----------------------------------------------------------------------------------
A----------------------------------------------------------------------------------
E----------------------------------------------------------------------------------

e---14-12-10-12-14--10--10----------10---------------------------------------------
B--------------------------14-12-14----10------------------------|triplets|x5------
G-------------------------------------------12-11-12-14-11-12-14--11-12-14----11-9-
D----------------------------------------------------------------------------------
A----------------------------------------------------------------------------------
E----------------------------------------------------------------------------------

e-------------------------------------------------------
B--12---10----------------------------------------------
G-------------------------------------------------------
D-------------------------------------------------------
A-------------------------------------------------------
E-------------------------------------------------------

D     A       Bm
D     A/C#     G
D     A/C#     G     
D     A/C#     C/G

Em     G        A      C
    Frosty the supervisor
Em     G        A      
    Lives by himself
Em     G           A         C 
    Sometimes I feel sorry for him
Em        G       A      
    Usually I can't
Em                     G
     I've turned off my hearing aid
        F#m      A/C#      Cdim7                       
Don't say the electric chair's not 
  Em               G                   F#m       A/C#    Cdim7
good enough  For king-lazy-bones like myself

(A-D-B-A-F#)

Em         G         A     C
    More coffee for me boss
Em                      G              A
    'Cause I'm not as messed up as I want to be
Em                     G
    I've turned off my hearing aid
        F#m    A/C#       Cdim7       
Don't say the electric chair's not
Em                 G                   F#m        A/C#    Cdim7 
good enough For king-lazy-bones like myself
   G         A
Because  Because


D     A     Bm
D     A     G
D     A     G     D     A    C
D     G     A     :|

Transcribed by John J. Ryan (JJRRutgers@hotmail.com)
Confirmed by John Linnell